ISO-10303-21;
HEADER;
/* Generated by software containing ST-Developer
 * from STEP Tools, Inc. (www.steptools.com) 
 */

FILE_DESCRIPTION(
/* description */ (''),
/* implementation_level */ '2;1');

FILE_NAME(
/* name */ 'C7_Jaw_Servo_mount_spacer.step',
/* time_stamp */ '2025-09-23T19:20:27+01:00',
/* author */ (''),
/* organization */ (''),
/* preprocessor_version */ 'ST-DEVELOPER v20.1',
/* originating_system */ 'Autodesk Translation Framework v14.17.0.0',
/* authorisation */ '');

FILE_SCHEMA (('AUTOMOTIVE_DESIGN { 1 0 10303 214 3 1 1 }'));
ENDSEC;

DATA;
#10=MECHANICAL_DESIGN_GEOMETRIC_PRESENTATION_REPRESENTATION('',(#13),#657);
#11=SHAPE_REPRESENTATION_RELATIONSHIP('SRR','None',#664,#12);
#12=ADVANCED_BREP_SHAPE_REPRESENTATION('',(#14),#656);
#13=STYLED_ITEM('',(#673),#14);
#14=MANIFOLD_SOLID_BREP('C7_Jaw_Servo_mount_spacer',#389);
#15=CIRCLE('',#405,0.700000000000003);
#16=CIRCLE('',#406,0.700000000000003);
#17=CIRCLE('',#409,0.700000000000005);
#18=CIRCLE('',#410,0.700000000000005);
#19=CIRCLE('',#415,0.700000000000109);
#20=CIRCLE('',#416,0.700000000000109);
#21=CIRCLE('',#421,0.800000000000021);
#22=CIRCLE('',#422,0.800000000000021);
#23=CIRCLE('',#427,0.700000000000003);
#24=CIRCLE('',#428,0.700000000000003);
#25=CIRCLE('',#431,0.699999999999985);
#26=CIRCLE('',#432,0.699999999999985);
#27=CYLINDRICAL_SURFACE('',#404,0.700000000000003);
#28=CYLINDRICAL_SURFACE('',#408,0.700000000000005);
#29=CYLINDRICAL_SURFACE('',#414,0.700000000000109);
#30=CYLINDRICAL_SURFACE('',#420,0.800000000000021);
#31=CYLINDRICAL_SURFACE('',#426,0.700000000000003);
#32=CYLINDRICAL_SURFACE('',#430,0.699999999999985);
#33=FACE_OUTER_BOUND('',#53,.T.);
#34=FACE_OUTER_BOUND('',#54,.T.);
#35=FACE_OUTER_BOUND('',#55,.T.);
#36=FACE_OUTER_BOUND('',#56,.T.);
#37=FACE_OUTER_BOUND('',#57,.T.);
#38=FACE_OUTER_BOUND('',#58,.T.);
#39=FACE_OUTER_BOUND('',#59,.T.);
#40=FACE_OUTER_BOUND('',#60,.T.);
#41=FACE_OUTER_BOUND('',#61,.T.);
#42=FACE_OUTER_BOUND('',#62,.T.);
#43=FACE_OUTER_BOUND('',#63,.T.);
#44=FACE_OUTER_BOUND('',#64,.T.);
#45=FACE_OUTER_BOUND('',#65,.T.);
#46=FACE_OUTER_BOUND('',#66,.T.);
#47=FACE_OUTER_BOUND('',#67,.T.);
#48=FACE_OUTER_BOUND('',#68,.T.);
#49=FACE_OUTER_BOUND('',#69,.T.);
#50=FACE_OUTER_BOUND('',#70,.T.);
#51=FACE_OUTER_BOUND('',#71,.T.);
#52=FACE_OUTER_BOUND('',#72,.T.);
#53=EDGE_LOOP('',(#247,#248,#249,#250));
#54=EDGE_LOOP('',(#251,#252,#253,#254));
#55=EDGE_LOOP('',(#255,#256,#257,#258));
#56=EDGE_LOOP('',(#259,#260,#261,#262));
#57=EDGE_LOOP('',(#263,#264,#265,#266));
#58=EDGE_LOOP('',(#267,#268,#269,#270));
#59=EDGE_LOOP('',(#271,#272,#273,#274));
#60=EDGE_LOOP('',(#275,#276,#277,#278));
#61=EDGE_LOOP('',(#279,#280,#281,#282));
#62=EDGE_LOOP('',(#283,#284,#285,#286));
#63=EDGE_LOOP('',(#287,#288,#289,#290));
#64=EDGE_LOOP('',(#291,#292,#293,#294));
#65=EDGE_LOOP('',(#295,#296,#297,#298));
#66=EDGE_LOOP('',(#299,#300,#301,#302));
#67=EDGE_LOOP('',(#303,#304,#305,#306));
#68=EDGE_LOOP('',(#307,#308,#309,#310));
#69=EDGE_LOOP('',(#311,#312,#313,#314));
#70=EDGE_LOOP('',(#315,#316,#317,#318));
#71=EDGE_LOOP('',(#319,#320,#321,#322,#323,#324,#325,#326,#327,#328,#329,
#330,#331,#332,#333,#334,#335,#336));
#72=EDGE_LOOP('',(#337,#338,#339,#340,#341,#342,#343,#344,#345,#346,#347,
#348,#349,#350,#351,#352,#353,#354));
#73=LINE('',#547,#115);
#74=LINE('',#549,#116);
#75=LINE('',#551,#117);
#76=LINE('',#552,#118);
#77=LINE('',#558,#119);
#78=LINE('',#561,#120);
#79=LINE('',#563,#121);
#80=LINE('',#564,#122);
#81=LINE('',#570,#123);
#82=LINE('',#573,#124);
#83=LINE('',#575,#125);
#84=LINE('',#576,#126);
#85=LINE('',#579,#127);
#86=LINE('',#581,#128);
#87=LINE('',#582,#129);
#88=LINE('',#585,#130);
#89=LINE('',#587,#131);
#90=LINE('',#588,#132);
#91=LINE('',#594,#133);
#92=LINE('',#597,#134);
#93=LINE('',#599,#135);
#94=LINE('',#600,#136);
#95=LINE('',#603,#137);
#96=LINE('',#605,#138);
#97=LINE('',#606,#139);
#98=LINE('',#609,#140);
#99=LINE('',#611,#141);
#100=LINE('',#612,#142);
#101=LINE('',#618,#143);
#102=LINE('',#621,#144);
#103=LINE('',#623,#145);
#104=LINE('',#624,#146);
#105=LINE('',#627,#147);
#106=LINE('',#629,#148);
#107=LINE('',#630,#149);
#108=LINE('',#633,#150);
#109=LINE('',#635,#151);
#110=LINE('',#636,#152);
#111=LINE('',#642,#153);
#112=LINE('',#645,#154);
#113=LINE('',#647,#155);
#114=LINE('',#648,#156);
#115=VECTOR('',#439,10.);
#116=VECTOR('',#440,10.);
#117=VECTOR('',#441,10.);
#118=VECTOR('',#442,10.);
#119=VECTOR('',#449,10.);
#120=VECTOR('',#452,10.);
#121=VECTOR('',#453,10.);
#122=VECTOR('',#454,10.);
#123=VECTOR('',#461,10.);
#124=VECTOR('',#464,10.);
#125=VECTOR('',#465,10.);
#126=VECTOR('',#466,10.);
#127=VECTOR('',#469,10.);
#128=VECTOR('',#470,10.);
#129=VECTOR('',#471,10.);
#130=VECTOR('',#474,10.);
#131=VECTOR('',#475,10.);
#132=VECTOR('',#476,10.);
#133=VECTOR('',#483,10.);
#134=VECTOR('',#486,10.);
#135=VECTOR('',#487,10.);
#136=VECTOR('',#488,10.);
#137=VECTOR('',#491,10.);
#138=VECTOR('',#492,10.);
#139=VECTOR('',#493,10.);
#140=VECTOR('',#496,10.);
#141=VECTOR('',#497,10.);
#142=VECTOR('',#498,10.);
#143=VECTOR('',#505,10.);
#144=VECTOR('',#508,10.);
#145=VECTOR('',#509,10.);
#146=VECTOR('',#510,10.);
#147=VECTOR('',#513,10.);
#148=VECTOR('',#514,10.);
#149=VECTOR('',#515,10.);
#150=VECTOR('',#518,10.);
#151=VECTOR('',#519,10.);
#152=VECTOR('',#520,10.);
#153=VECTOR('',#527,10.);
#154=VECTOR('',#530,10.);
#155=VECTOR('',#531,10.);
#156=VECTOR('',#532,10.);
#157=VERTEX_POINT('',#545);
#158=VERTEX_POINT('',#546);
#159=VERTEX_POINT('',#548);
#160=VERTEX_POINT('',#550);
#161=VERTEX_POINT('',#554);
#162=VERTEX_POINT('',#556);
#163=VERTEX_POINT('',#560);
#164=VERTEX_POINT('',#562);
#165=VERTEX_POINT('',#566);
#166=VERTEX_POINT('',#568);
#167=VERTEX_POINT('',#572);
#168=VERTEX_POINT('',#574);
#169=VERTEX_POINT('',#578);
#170=VERTEX_POINT('',#580);
#171=VERTEX_POINT('',#584);
#172=VERTEX_POINT('',#586);
#173=VERTEX_POINT('',#590);
#174=VERTEX_POINT('',#592);
#175=VERTEX_POINT('',#596);
#176=VERTEX_POINT('',#598);
#177=VERTEX_POINT('',#602);
#178=VERTEX_POINT('',#604);
#179=VERTEX_POINT('',#608);
#180=VERTEX_POINT('',#610);
#181=VERTEX_POINT('',#614);
#182=VERTEX_POINT('',#616);
#183=VERTEX_POINT('',#620);
#184=VERTEX_POINT('',#622);
#185=VERTEX_POINT('',#626);
#186=VERTEX_POINT('',#628);
#187=VERTEX_POINT('',#632);
#188=VERTEX_POINT('',#634);
#189=VERTEX_POINT('',#638);
#190=VERTEX_POINT('',#640);
#191=VERTEX_POINT('',#644);
#192=VERTEX_POINT('',#646);
#193=EDGE_CURVE('',#157,#158,#73,.T.);
#194=EDGE_CURVE('',#157,#159,#74,.T.);
#195=EDGE_CURVE('',#160,#159,#75,.T.);
#196=EDGE_CURVE('',#158,#160,#76,.T.);
#197=EDGE_CURVE('',#161,#158,#15,.T.);
#198=EDGE_CURVE('',#162,#160,#16,.T.);
#199=EDGE_CURVE('',#161,#162,#77,.T.);
#200=EDGE_CURVE('',#161,#163,#78,.T.);
#201=EDGE_CURVE('',#164,#162,#79,.T.);
#202=EDGE_CURVE('',#163,#164,#80,.T.);
#203=EDGE_CURVE('',#165,#163,#17,.T.);
#204=EDGE_CURVE('',#166,#164,#18,.T.);
#205=EDGE_CURVE('',#165,#166,#81,.T.);
#206=EDGE_CURVE('',#165,#167,#82,.T.);
#207=EDGE_CURVE('',#168,#166,#83,.T.);
#208=EDGE_CURVE('',#167,#168,#84,.T.);
#209=EDGE_CURVE('',#167,#169,#85,.T.);
#210=EDGE_CURVE('',#170,#168,#86,.T.);
#211=EDGE_CURVE('',#169,#170,#87,.T.);
#212=EDGE_CURVE('',#169,#171,#88,.T.);
#213=EDGE_CURVE('',#172,#170,#89,.T.);
#214=EDGE_CURVE('',#171,#172,#90,.T.);
#215=EDGE_CURVE('',#173,#171,#19,.T.);
#216=EDGE_CURVE('',#174,#172,#20,.T.);
#217=EDGE_CURVE('',#173,#174,#91,.T.);
#218=EDGE_CURVE('',#173,#175,#92,.T.);
#219=EDGE_CURVE('',#176,#174,#93,.T.);
#220=EDGE_CURVE('',#175,#176,#94,.T.);
#221=EDGE_CURVE('',#175,#177,#95,.T.);
#222=EDGE_CURVE('',#178,#176,#96,.T.);
#223=EDGE_CURVE('',#177,#178,#97,.T.);
#224=EDGE_CURVE('',#177,#179,#98,.T.);
#225=EDGE_CURVE('',#180,#178,#99,.T.);
#226=EDGE_CURVE('',#179,#180,#100,.T.);
#227=EDGE_CURVE('',#181,#179,#21,.T.);
#228=EDGE_CURVE('',#182,#180,#22,.T.);
#229=EDGE_CURVE('',#181,#182,#101,.T.);
#230=EDGE_CURVE('',#181,#183,#102,.T.);
#231=EDGE_CURVE('',#184,#182,#103,.T.);
#232=EDGE_CURVE('',#183,#184,#104,.T.);
#233=EDGE_CURVE('',#185,#183,#105,.T.);
#234=EDGE_CURVE('',#186,#184,#106,.T.);
#235=EDGE_CURVE('',#185,#186,#107,.T.);
#236=EDGE_CURVE('',#187,#185,#108,.T.);
#237=EDGE_CURVE('',#188,#186,#109,.T.);
#238=EDGE_CURVE('',#187,#188,#110,.T.);
#239=EDGE_CURVE('',#189,#187,#23,.T.);
#240=EDGE_CURVE('',#190,#188,#24,.T.);
#241=EDGE_CURVE('',#189,#190,#111,.T.);
#242=EDGE_CURVE('',#191,#189,#112,.T.);
#243=EDGE_CURVE('',#192,#190,#113,.T.);
#244=EDGE_CURVE('',#191,#192,#114,.T.);
#245=EDGE_CURVE('',#157,#191,#25,.T.);
#246=EDGE_CURVE('',#159,#192,#26,.T.);
#247=ORIENTED_EDGE('',*,*,#193,.F.);
#248=ORIENTED_EDGE('',*,*,#194,.T.);
#249=ORIENTED_EDGE('',*,*,#195,.F.);
#250=ORIENTED_EDGE('',*,*,#196,.F.);
#251=ORIENTED_EDGE('',*,*,#197,.T.);
#252=ORIENTED_EDGE('',*,*,#196,.T.);
#253=ORIENTED_EDGE('',*,*,#198,.F.);
#254=ORIENTED_EDGE('',*,*,#199,.F.);
#255=ORIENTED_EDGE('',*,*,#200,.F.);
#256=ORIENTED_EDGE('',*,*,#199,.T.);
#257=ORIENTED_EDGE('',*,*,#201,.F.);
#258=ORIENTED_EDGE('',*,*,#202,.F.);
#259=ORIENTED_EDGE('',*,*,#203,.T.);
#260=ORIENTED_EDGE('',*,*,#202,.T.);
#261=ORIENTED_EDGE('',*,*,#204,.F.);
#262=ORIENTED_EDGE('',*,*,#205,.F.);
#263=ORIENTED_EDGE('',*,*,#206,.F.);
#264=ORIENTED_EDGE('',*,*,#205,.T.);
#265=ORIENTED_EDGE('',*,*,#207,.F.);
#266=ORIENTED_EDGE('',*,*,#208,.F.);
#267=ORIENTED_EDGE('',*,*,#209,.F.);
#268=ORIENTED_EDGE('',*,*,#208,.T.);
#269=ORIENTED_EDGE('',*,*,#210,.F.);
#270=ORIENTED_EDGE('',*,*,#211,.F.);
#271=ORIENTED_EDGE('',*,*,#212,.F.);
#272=ORIENTED_EDGE('',*,*,#211,.T.);
#273=ORIENTED_EDGE('',*,*,#213,.F.);
#274=ORIENTED_EDGE('',*,*,#214,.F.);
#275=ORIENTED_EDGE('',*,*,#215,.T.);
#276=ORIENTED_EDGE('',*,*,#214,.T.);
#277=ORIENTED_EDGE('',*,*,#216,.F.);
#278=ORIENTED_EDGE('',*,*,#217,.F.);
#279=ORIENTED_EDGE('',*,*,#218,.F.);
#280=ORIENTED_EDGE('',*,*,#217,.T.);
#281=ORIENTED_EDGE('',*,*,#219,.F.);
#282=ORIENTED_EDGE('',*,*,#220,.F.);
#283=ORIENTED_EDGE('',*,*,#221,.F.);
#284=ORIENTED_EDGE('',*,*,#220,.T.);
#285=ORIENTED_EDGE('',*,*,#222,.F.);
#286=ORIENTED_EDGE('',*,*,#223,.F.);
#287=ORIENTED_EDGE('',*,*,#224,.F.);
#288=ORIENTED_EDGE('',*,*,#223,.T.);
#289=ORIENTED_EDGE('',*,*,#225,.F.);
#290=ORIENTED_EDGE('',*,*,#226,.F.);
#291=ORIENTED_EDGE('',*,*,#227,.T.);
#292=ORIENTED_EDGE('',*,*,#226,.T.);
#293=ORIENTED_EDGE('',*,*,#228,.F.);
#294=ORIENTED_EDGE('',*,*,#229,.F.);
#295=ORIENTED_EDGE('',*,*,#230,.F.);
#296=ORIENTED_EDGE('',*,*,#229,.T.);
#297=ORIENTED_EDGE('',*,*,#231,.F.);
#298=ORIENTED_EDGE('',*,*,#232,.F.);
#299=ORIENTED_EDGE('',*,*,#233,.T.);
#300=ORIENTED_EDGE('',*,*,#232,.T.);
#301=ORIENTED_EDGE('',*,*,#234,.F.);
#302=ORIENTED_EDGE('',*,*,#235,.F.);
#303=ORIENTED_EDGE('',*,*,#236,.T.);
#304=ORIENTED_EDGE('',*,*,#235,.T.);
#305=ORIENTED_EDGE('',*,*,#237,.F.);
#306=ORIENTED_EDGE('',*,*,#238,.F.);
#307=ORIENTED_EDGE('',*,*,#239,.T.);
#308=ORIENTED_EDGE('',*,*,#238,.T.);
#309=ORIENTED_EDGE('',*,*,#240,.F.);
#310=ORIENTED_EDGE('',*,*,#241,.F.);
#311=ORIENTED_EDGE('',*,*,#242,.T.);
#312=ORIENTED_EDGE('',*,*,#241,.T.);
#313=ORIENTED_EDGE('',*,*,#243,.F.);
#314=ORIENTED_EDGE('',*,*,#244,.F.);
#315=ORIENTED_EDGE('',*,*,#245,.T.);
#316=ORIENTED_EDGE('',*,*,#244,.T.);
#317=ORIENTED_EDGE('',*,*,#246,.F.);
#318=ORIENTED_EDGE('',*,*,#194,.F.);
#319=ORIENTED_EDGE('',*,*,#246,.T.);
#320=ORIENTED_EDGE('',*,*,#243,.T.);
#321=ORIENTED_EDGE('',*,*,#240,.T.);
#322=ORIENTED_EDGE('',*,*,#237,.T.);
#323=ORIENTED_EDGE('',*,*,#234,.T.);
#324=ORIENTED_EDGE('',*,*,#231,.T.);
#325=ORIENTED_EDGE('',*,*,#228,.T.);
#326=ORIENTED_EDGE('',*,*,#225,.T.);
#327=ORIENTED_EDGE('',*,*,#222,.T.);
#328=ORIENTED_EDGE('',*,*,#219,.T.);
#329=ORIENTED_EDGE('',*,*,#216,.T.);
#330=ORIENTED_EDGE('',*,*,#213,.T.);
#331=ORIENTED_EDGE('',*,*,#210,.T.);
#332=ORIENTED_EDGE('',*,*,#207,.T.);
#333=ORIENTED_EDGE('',*,*,#204,.T.);
#334=ORIENTED_EDGE('',*,*,#201,.T.);
#335=ORIENTED_EDGE('',*,*,#198,.T.);
#336=ORIENTED_EDGE('',*,*,#195,.T.);
#337=ORIENTED_EDGE('',*,*,#245,.F.);
#338=ORIENTED_EDGE('',*,*,#193,.T.);
#339=ORIENTED_EDGE('',*,*,#197,.F.);
#340=ORIENTED_EDGE('',*,*,#200,.T.);
#341=ORIENTED_EDGE('',*,*,#203,.F.);
#342=ORIENTED_EDGE('',*,*,#206,.T.);
#343=ORIENTED_EDGE('',*,*,#209,.T.);
#344=ORIENTED_EDGE('',*,*,#212,.T.);
#345=ORIENTED_EDGE('',*,*,#215,.F.);
#346=ORIENTED_EDGE('',*,*,#218,.T.);
#347=ORIENTED_EDGE('',*,*,#221,.T.);
#348=ORIENTED_EDGE('',*,*,#224,.T.);
#349=ORIENTED_EDGE('',*,*,#227,.F.);
#350=ORIENTED_EDGE('',*,*,#230,.T.);
#351=ORIENTED_EDGE('',*,*,#233,.F.);
#352=ORIENTED_EDGE('',*,*,#236,.F.);
#353=ORIENTED_EDGE('',*,*,#239,.F.);
#354=ORIENTED_EDGE('',*,*,#242,.F.);
#355=PLANE('',#403);
#356=PLANE('',#407);
#357=PLANE('',#411);
#358=PLANE('',#412);
#359=PLANE('',#413);
#360=PLANE('',#417);
#361=PLANE('',#418);
#362=PLANE('',#419);
#363=PLANE('',#423);
#364=PLANE('',#424);
#365=PLANE('',#425);
#366=PLANE('',#429);
#367=PLANE('',#433);
#368=PLANE('',#434);
#369=ADVANCED_FACE('',(#33),#355,.T.);
#370=ADVANCED_FACE('',(#34),#27,.T.);
#371=ADVANCED_FACE('',(#35),#356,.T.);
#372=ADVANCED_FACE('',(#36),#28,.T.);
#373=ADVANCED_FACE('',(#37),#357,.T.);
#374=ADVANCED_FACE('',(#38),#358,.T.);
#375=ADVANCED_FACE('',(#39),#359,.T.);
#376=ADVANCED_FACE('',(#40),#29,.T.);
#377=ADVANCED_FACE('',(#41),#360,.T.);
#378=ADVANCED_FACE('',(#42),#361,.T.);
#379=ADVANCED_FACE('',(#43),#362,.T.);
#380=ADVANCED_FACE('',(#44),#30,.T.);
#381=ADVANCED_FACE('',(#45),#363,.T.);
#382=ADVANCED_FACE('',(#46),#364,.T.);
#383=ADVANCED_FACE('',(#47),#365,.T.);
#384=ADVANCED_FACE('',(#48),#31,.T.);
#385=ADVANCED_FACE('',(#49),#366,.T.);
#386=ADVANCED_FACE('',(#50),#32,.T.);
#387=ADVANCED_FACE('',(#51),#367,.T.);
#388=ADVANCED_FACE('',(#52),#368,.F.);
#389=CLOSED_SHELL('',(#369,#370,#371,#372,#373,#374,#375,#376,#377,#378,
#379,#380,#381,#382,#383,#384,#385,#386,#387,#388));
#390=DERIVED_UNIT_ELEMENT(#392,1.);
#391=DERIVED_UNIT_ELEMENT(#659,-3.);
#392=(
MASS_UNIT()
NAMED_UNIT(*)
SI_UNIT(.KILO.,.GRAM.)
);
#393=DERIVED_UNIT((#390,#391));
#394=MEASURE_REPRESENTATION_ITEM('density measure',
POSITIVE_RATIO_MEASURE(7850.),#393);
#395=PROPERTY_DEFINITION_REPRESENTATION(#400,#397);
#396=PROPERTY_DEFINITION_REPRESENTATION(#401,#398);
#397=REPRESENTATION('material name',(#399),#656);
#398=REPRESENTATION('density',(#394),#656);
#399=DESCRIPTIVE_REPRESENTATION_ITEM('Steel','Steel');
#400=PROPERTY_DEFINITION('material property','material name',#666);
#401=PROPERTY_DEFINITION('material property','density of part',#666);
#402=AXIS2_PLACEMENT_3D('',#543,#435,#436);
#403=AXIS2_PLACEMENT_3D('',#544,#437,#438);
#404=AXIS2_PLACEMENT_3D('',#553,#443,#444);
#405=AXIS2_PLACEMENT_3D('',#555,#445,#446);
#406=AXIS2_PLACEMENT_3D('',#557,#447,#448);
#407=AXIS2_PLACEMENT_3D('',#559,#450,#451);
#408=AXIS2_PLACEMENT_3D('',#565,#455,#456);
#409=AXIS2_PLACEMENT_3D('',#567,#457,#458);
#410=AXIS2_PLACEMENT_3D('',#569,#459,#460);
#411=AXIS2_PLACEMENT_3D('',#571,#462,#463);
#412=AXIS2_PLACEMENT_3D('',#577,#467,#468);
#413=AXIS2_PLACEMENT_3D('',#583,#472,#473);
#414=AXIS2_PLACEMENT_3D('',#589,#477,#478);
#415=AXIS2_PLACEMENT_3D('',#591,#479,#480);
#416=AXIS2_PLACEMENT_3D('',#593,#481,#482);
#417=AXIS2_PLACEMENT_3D('',#595,#484,#485);
#418=AXIS2_PLACEMENT_3D('',#601,#489,#490);
#419=AXIS2_PLACEMENT_3D('',#607,#494,#495);
#420=AXIS2_PLACEMENT_3D('',#613,#499,#500);
#421=AXIS2_PLACEMENT_3D('',#615,#501,#502);
#422=AXIS2_PLACEMENT_3D('',#617,#503,#504);
#423=AXIS2_PLACEMENT_3D('',#619,#506,#507);
#424=AXIS2_PLACEMENT_3D('',#625,#511,#512);
#425=AXIS2_PLACEMENT_3D('',#631,#516,#517);
#426=AXIS2_PLACEMENT_3D('',#637,#521,#522);
#427=AXIS2_PLACEMENT_3D('',#639,#523,#524);
#428=AXIS2_PLACEMENT_3D('',#641,#525,#526);
#429=AXIS2_PLACEMENT_3D('',#643,#528,#529);
#430=AXIS2_PLACEMENT_3D('',#649,#533,#534);
#431=AXIS2_PLACEMENT_3D('',#650,#535,#536);
#432=AXIS2_PLACEMENT_3D('',#651,#537,#538);
#433=AXIS2_PLACEMENT_3D('',#652,#539,#540);
#434=AXIS2_PLACEMENT_3D('',#653,#541,#542);
#435=DIRECTION('axis',(0.,0.,1.));
#436=DIRECTION('refdir',(1.,0.,0.));
#437=DIRECTION('center_axis',(7.72329060608809E-15,-1.,0.));
#438=DIRECTION('ref_axis',(1.,7.72329060608809E-15,0.));
#439=DIRECTION('',(-1.,-7.72329060608809E-15,0.));
#440=DIRECTION('',(0.,0.,1.));
#441=DIRECTION('',(1.,7.72329060608809E-15,0.));
#442=DIRECTION('',(0.,0.,1.));
#443=DIRECTION('center_axis',(0.,0.,1.));
#444=DIRECTION('ref_axis',(-1.,0.,0.));
#445=DIRECTION('center_axis',(0.,0.,1.));
#446=DIRECTION('ref_axis',(-1.,0.,0.));
#447=DIRECTION('center_axis',(0.,0.,1.));
#448=DIRECTION('ref_axis',(-1.,0.,0.));
#449=DIRECTION('',(0.,0.,1.));
#450=DIRECTION('center_axis',(-1.,0.,0.));
#451=DIRECTION('ref_axis',(0.,-1.,0.));
#452=DIRECTION('',(0.,1.,0.));
#453=DIRECTION('',(0.,-1.,0.));
#454=DIRECTION('',(0.,0.,1.));
#455=DIRECTION('center_axis',(0.,0.,1.));
#456=DIRECTION('ref_axis',(0.,1.,0.));
#457=DIRECTION('center_axis',(0.,0.,1.));
#458=DIRECTION('ref_axis',(0.,1.,0.));
#459=DIRECTION('center_axis',(0.,0.,1.));
#460=DIRECTION('ref_axis',(0.,1.,0.));
#461=DIRECTION('',(0.,0.,1.));
#462=DIRECTION('center_axis',(0.,1.,0.));
#463=DIRECTION('ref_axis',(-1.,0.,0.));
#464=DIRECTION('',(1.,0.,0.));
#465=DIRECTION('',(-1.,0.,0.));
#466=DIRECTION('',(0.,0.,1.));
#467=DIRECTION('center_axis',(-1.,0.,0.));
#468=DIRECTION('ref_axis',(0.,-1.,0.));
#469=DIRECTION('',(0.,1.,0.));
#470=DIRECTION('',(0.,-1.,0.));
#471=DIRECTION('',(0.,0.,1.));
#472=DIRECTION('center_axis',(4.73051549622896E-14,-1.,0.));
#473=DIRECTION('ref_axis',(1.,4.73051549622896E-14,0.));
#474=DIRECTION('',(-1.,-4.73051549622896E-14,0.));
#475=DIRECTION('',(1.,4.73051549622896E-14,0.));
#476=DIRECTION('',(0.,0.,1.));
#477=DIRECTION('center_axis',(0.,0.,1.));
#478=DIRECTION('ref_axis',(-1.,0.,0.));
#479=DIRECTION('center_axis',(0.,0.,1.));
#480=DIRECTION('ref_axis',(-1.,0.,0.));
#481=DIRECTION('center_axis',(0.,0.,1.));
#482=DIRECTION('ref_axis',(-1.,0.,0.));
#483=DIRECTION('',(0.,0.,1.));
#484=DIRECTION('center_axis',(-1.,0.,0.));
#485=DIRECTION('ref_axis',(0.,-1.,0.));
#486=DIRECTION('',(0.,1.,0.));
#487=DIRECTION('',(0.,-1.,0.));
#488=DIRECTION('',(0.,0.,1.));
#489=DIRECTION('center_axis',(0.,1.,0.));
#490=DIRECTION('ref_axis',(-1.,0.,0.));
#491=DIRECTION('',(1.,0.,0.));
#492=DIRECTION('',(-1.,0.,0.));
#493=DIRECTION('',(0.,0.,1.));
#494=DIRECTION('center_axis',(1.,0.,0.));
#495=DIRECTION('ref_axis',(0.,1.,0.));
#496=DIRECTION('',(0.,-1.,0.));
#497=DIRECTION('',(0.,1.,0.));
#498=DIRECTION('',(0.,0.,1.));
#499=DIRECTION('center_axis',(0.,0.,1.));
#500=DIRECTION('ref_axis',(0.,-1.,0.));
#501=DIRECTION('center_axis',(0.,0.,1.));
#502=DIRECTION('ref_axis',(0.,-1.,0.));
#503=DIRECTION('center_axis',(0.,0.,1.));
#504=DIRECTION('ref_axis',(0.,-1.,0.));
#505=DIRECTION('',(0.,0.,1.));
#506=DIRECTION('center_axis',(0.,-1.,0.));
#507=DIRECTION('ref_axis',(1.,0.,0.));
#508=DIRECTION('',(-1.,0.,0.));
#509=DIRECTION('',(1.,0.,0.));
#510=DIRECTION('',(0.,0.,1.));
#511=DIRECTION('center_axis',(1.,-2.80477395694777E-14,0.));
#512=DIRECTION('ref_axis',(2.80477395694777E-14,1.,0.));
#513=DIRECTION('',(2.80477395694777E-14,1.,0.));
#514=DIRECTION('',(2.80477395694777E-14,1.,0.));
#515=DIRECTION('',(0.,0.,1.));
#516=DIRECTION('center_axis',(9.65411325760959E-16,1.,0.));
#517=DIRECTION('ref_axis',(-1.,9.65411325760959E-16,0.));
#518=DIRECTION('',(-1.,9.65411325760959E-16,0.));
#519=DIRECTION('',(-1.,9.65411325760959E-16,0.));
#520=DIRECTION('',(0.,0.,1.));
#521=DIRECTION('center_axis',(0.,0.,1.));
#522=DIRECTION('ref_axis',(1.,0.,0.));
#523=DIRECTION('center_axis',(0.,0.,1.));
#524=DIRECTION('ref_axis',(1.,0.,0.));
#525=DIRECTION('center_axis',(0.,0.,1.));
#526=DIRECTION('ref_axis',(1.,0.,0.));
#527=DIRECTION('',(0.,0.,1.));
#528=DIRECTION('center_axis',(1.,0.,0.));
#529=DIRECTION('ref_axis',(0.,1.,0.));
#530=DIRECTION('',(0.,1.,0.));
#531=DIRECTION('',(0.,1.,0.));
#532=DIRECTION('',(0.,0.,1.));
#533=DIRECTION('center_axis',(0.,0.,1.));
#534=DIRECTION('ref_axis',(0.,-1.,0.));
#535=DIRECTION('center_axis',(0.,0.,1.));
#536=DIRECTION('ref_axis',(0.,-1.,0.));
#537=DIRECTION('center_axis',(0.,0.,1.));
#538=DIRECTION('ref_axis',(0.,-1.,0.));
#539=DIRECTION('center_axis',(0.,0.,1.));
#540=DIRECTION('ref_axis',(1.,0.,0.));
#541=DIRECTION('center_axis',(0.,0.,1.));
#542=DIRECTION('ref_axis',(1.,0.,0.));
#543=CARTESIAN_POINT('',(0.,0.,0.));
#544=CARTESIAN_POINT('Origin',(102.671729701766,2.61289687684834,0.));
#545=CARTESIAN_POINT('',(130.271729701766,2.61289687684836,0.));
#546=CARTESIAN_POINT('',(102.671729701766,2.61289687684834,0.));
#547=CARTESIAN_POINT('',(104.971729701765,2.61289687684836,0.));
#548=CARTESIAN_POINT('',(130.271729701766,2.61289687684836,4.));
#549=CARTESIAN_POINT('',(130.271729701766,2.61289687684836,0.));
#550=CARTESIAN_POINT('',(102.671729701766,2.61289687684834,4.));
#551=CARTESIAN_POINT('',(104.971729701765,2.61289687684836,4.));
#552=CARTESIAN_POINT('',(102.671729701766,2.61289687684834,0.));
#553=CARTESIAN_POINT('Origin',(102.671729701766,3.31289687684835,0.));
#554=CARTESIAN_POINT('',(101.971729701766,3.31289687684835,0.));
#555=CARTESIAN_POINT('Origin',(102.671729701766,3.31289687684835,0.));
#556=CARTESIAN_POINT('',(101.971729701766,3.31289687684835,4.));
#557=CARTESIAN_POINT('Origin',(102.671729701766,3.31289687684835,4.));
#558=CARTESIAN_POINT('',(101.971729701766,3.31289687684835,0.));
#559=CARTESIAN_POINT('Origin',(101.971729701766,4.91289687684835,0.));
#560=CARTESIAN_POINT('',(101.971729701766,4.91289687684835,0.));
#561=CARTESIAN_POINT('',(101.971729701766,3.31289687684835,0.));
#562=CARTESIAN_POINT('',(101.971729701766,4.91289687684835,4.));
#563=CARTESIAN_POINT('',(101.971729701766,3.31289687684835,4.));
#564=CARTESIAN_POINT('',(101.971729701766,4.91289687684835,0.));
#565=CARTESIAN_POINT('Origin',(102.671729701766,4.91289687684835,0.));
#566=CARTESIAN_POINT('',(102.671729701766,5.61289687684835,0.));
#567=CARTESIAN_POINT('Origin',(102.671729701766,4.91289687684835,0.));
#568=CARTESIAN_POINT('',(102.671729701766,5.61289687684835,4.));
#569=CARTESIAN_POINT('Origin',(102.671729701766,4.91289687684835,4.));
#570=CARTESIAN_POINT('',(102.671729701766,5.61289687684835,0.));
#571=CARTESIAN_POINT('Origin',(104.971729701765,5.61289687684835,0.));
#572=CARTESIAN_POINT('',(104.971729701765,5.61289687684835,0.));
#573=CARTESIAN_POINT('',(102.671729701766,5.61289687684835,0.));
#574=CARTESIAN_POINT('',(104.971729701765,5.61289687684835,4.));
#575=CARTESIAN_POINT('',(102.671729701766,5.61289687684835,4.));
#576=CARTESIAN_POINT('',(104.971729701765,5.61289687684835,0.));
#577=CARTESIAN_POINT('Origin',(104.971729701765,9.41289687684834,0.));
#578=CARTESIAN_POINT('',(104.971729701765,9.41289687684834,0.));
#579=CARTESIAN_POINT('',(104.971729701765,5.61289687684835,0.));
#580=CARTESIAN_POINT('',(104.971729701765,9.41289687684834,4.));
#581=CARTESIAN_POINT('',(104.971729701765,5.61289687684835,4.));
#582=CARTESIAN_POINT('',(104.971729701765,9.41289687684834,0.));
#583=CARTESIAN_POINT('Origin',(102.671729701766,9.41289687684823,0.));
#584=CARTESIAN_POINT('',(102.671729701766,9.41289687684823,0.));
#585=CARTESIAN_POINT('',(104.971729701765,9.41289687684834,0.));
#586=CARTESIAN_POINT('',(102.671729701766,9.41289687684823,4.));
#587=CARTESIAN_POINT('',(104.971729701765,9.41289687684834,4.));
#588=CARTESIAN_POINT('',(102.671729701766,9.41289687684823,0.));
#589=CARTESIAN_POINT('Origin',(102.671729701766,10.1128968768483,0.));
#590=CARTESIAN_POINT('',(101.971729701765,10.1128968768483,0.));
#591=CARTESIAN_POINT('Origin',(102.671729701766,10.1128968768483,0.));
#592=CARTESIAN_POINT('',(101.971729701765,10.1128968768483,4.));
#593=CARTESIAN_POINT('Origin',(102.671729701766,10.1128968768483,4.));
#594=CARTESIAN_POINT('',(101.971729701765,10.1128968768483,0.));
#595=CARTESIAN_POINT('Origin',(101.971729701765,20.6128968768484,0.));
#596=CARTESIAN_POINT('',(101.971729701765,20.6128968768484,0.));
#597=CARTESIAN_POINT('',(101.971729701765,10.1128968768483,0.));
#598=CARTESIAN_POINT('',(101.971729701765,20.6128968768484,4.));
#599=CARTESIAN_POINT('',(101.971729701765,10.1128968768483,4.));
#600=CARTESIAN_POINT('',(101.971729701765,20.6128968768484,0.));
#601=CARTESIAN_POINT('Origin',(130.971729701766,20.6128968768484,0.));
#602=CARTESIAN_POINT('',(130.971729701766,20.6128968768484,0.));
#603=CARTESIAN_POINT('',(101.971729701765,20.6128968768484,0.));
#604=CARTESIAN_POINT('',(130.971729701766,20.6128968768484,4.));
#605=CARTESIAN_POINT('',(101.971729701765,20.6128968768484,4.));
#606=CARTESIAN_POINT('',(130.971729701766,20.6128968768484,0.));
#607=CARTESIAN_POINT('Origin',(130.971729701766,10.2128968768484,0.));
#608=CARTESIAN_POINT('',(130.971729701766,10.2128968768484,0.));
#609=CARTESIAN_POINT('',(130.971729701766,20.6128968768484,0.));
#610=CARTESIAN_POINT('',(130.971729701766,10.2128968768484,4.));
#611=CARTESIAN_POINT('',(130.971729701766,20.6128968768484,4.));
#612=CARTESIAN_POINT('',(130.971729701766,10.2128968768484,0.));
#613=CARTESIAN_POINT('Origin',(130.171729701765,10.2128968768484,0.));
#614=CARTESIAN_POINT('',(130.171729701765,9.41289687684834,0.));
#615=CARTESIAN_POINT('Origin',(130.171729701765,10.2128968768484,0.));
#616=CARTESIAN_POINT('',(130.171729701765,9.41289687684834,4.));
#617=CARTESIAN_POINT('Origin',(130.171729701765,10.2128968768484,4.));
#618=CARTESIAN_POINT('',(130.171729701765,9.41289687684834,0.));
#619=CARTESIAN_POINT('Origin',(127.971729701765,9.41289687684834,0.));
#620=CARTESIAN_POINT('',(127.971729701765,9.41289687684834,0.));
#621=CARTESIAN_POINT('',(130.171729701765,9.41289687684834,0.));
#622=CARTESIAN_POINT('',(127.971729701765,9.41289687684834,4.));
#623=CARTESIAN_POINT('',(130.171729701765,9.41289687684834,4.));
#624=CARTESIAN_POINT('',(127.971729701765,9.41289687684834,0.));
#625=CARTESIAN_POINT('Origin',(127.971729701765,5.61289687684835,0.));
#626=CARTESIAN_POINT('',(127.971729701765,5.61289687684835,0.));
#627=CARTESIAN_POINT('',(127.971729701765,5.61289687684835,0.));
#628=CARTESIAN_POINT('',(127.971729701765,5.61289687684835,4.));
#629=CARTESIAN_POINT('',(127.971729701765,5.61289687684835,4.));
#630=CARTESIAN_POINT('',(127.971729701765,5.61289687684835,0.));
#631=CARTESIAN_POINT('Origin',(130.271729701766,5.61289687684835,0.));
#632=CARTESIAN_POINT('',(130.271729701766,5.61289687684835,0.));
#633=CARTESIAN_POINT('',(130.271729701766,5.61289687684835,0.));
#634=CARTESIAN_POINT('',(130.271729701766,5.61289687684835,4.));
#635=CARTESIAN_POINT('',(130.271729701766,5.61289687684835,4.));
#636=CARTESIAN_POINT('',(130.271729701766,5.61289687684835,0.));
#637=CARTESIAN_POINT('Origin',(130.271729701766,4.91289687684835,0.));
#638=CARTESIAN_POINT('',(130.971729701766,4.91289687684835,0.));
#639=CARTESIAN_POINT('Origin',(130.271729701766,4.91289687684835,0.));
#640=CARTESIAN_POINT('',(130.971729701766,4.91289687684835,4.));
#641=CARTESIAN_POINT('Origin',(130.271729701766,4.91289687684835,4.));
#642=CARTESIAN_POINT('',(130.971729701766,4.91289687684835,0.));
#643=CARTESIAN_POINT('Origin',(130.971729701766,3.31289687684835,0.));
#644=CARTESIAN_POINT('',(130.971729701765,3.31289687684835,0.));
#645=CARTESIAN_POINT('',(130.971729701766,3.31289687684835,0.));
#646=CARTESIAN_POINT('',(130.971729701765,3.31289687684835,4.));
#647=CARTESIAN_POINT('',(130.971729701766,3.31289687684835,4.));
#648=CARTESIAN_POINT('',(130.971729701765,3.31289687684835,0.));
#649=CARTESIAN_POINT('Origin',(130.271729701766,3.31289687684835,0.));
#650=CARTESIAN_POINT('Origin',(130.271729701766,3.31289687684835,0.));
#651=CARTESIAN_POINT('Origin',(130.271729701766,3.31289687684835,4.));
#652=CARTESIAN_POINT('Origin',(-1.65143832729525,-68.6920395137111,4.));
#653=CARTESIAN_POINT('Origin',(-1.65143832729525,-68.6920395137111,0.));
#654=UNCERTAINTY_MEASURE_WITH_UNIT(LENGTH_MEASURE(0.01),#658,
'DISTANCE_ACCURACY_VALUE',
'Maximum model space distance between geometric entities at asserted c
onnectivities');
#655=UNCERTAINTY_MEASURE_WITH_UNIT(LENGTH_MEASURE(0.01),#658,
'DISTANCE_ACCURACY_VALUE',
'Maximum model space distance between geometric entities at asserted c
onnectivities');
#656=(
GEOMETRIC_REPRESENTATION_CONTEXT(3)
GLOBAL_UNCERTAINTY_ASSIGNED_CONTEXT((#654))
GLOBAL_UNIT_ASSIGNED_CONTEXT((#658,#660,#661))
REPRESENTATION_CONTEXT('','3D')
);
#657=(
GEOMETRIC_REPRESENTATION_CONTEXT(3)
GLOBAL_UNCERTAINTY_ASSIGNED_CONTEXT((#655))
GLOBAL_UNIT_ASSIGNED_CONTEXT((#658,#660,#661))
REPRESENTATION_CONTEXT('','3D')
);
#658=(
LENGTH_UNIT()
NAMED_UNIT(*)
SI_UNIT(.MILLI.,.METRE.)
);
#659=(
LENGTH_UNIT()
NAMED_UNIT(*)
SI_UNIT($,.METRE.)
);
#660=(
NAMED_UNIT(*)
PLANE_ANGLE_UNIT()
SI_UNIT($,.RADIAN.)
);
#661=(
NAMED_UNIT(*)
SI_UNIT($,.STERADIAN.)
SOLID_ANGLE_UNIT()
);
#662=SHAPE_DEFINITION_REPRESENTATION(#663,#664);
#663=PRODUCT_DEFINITION_SHAPE('',$,#666);
#664=SHAPE_REPRESENTATION('',(#402),#656);
#665=PRODUCT_DEFINITION_CONTEXT('part definition',#670,'design');
#666=PRODUCT_DEFINITION('C7_Jaw_Servo_mount_spacer',
'C7_Jaw_Servo_mount_spacer',#667,#665);
#667=PRODUCT_DEFINITION_FORMATION('',$,#672);
#668=PRODUCT_RELATED_PRODUCT_CATEGORY('C7_Jaw_Servo_mount_spacer',
'C7_Jaw_Servo_mount_spacer',(#672));
#669=APPLICATION_PROTOCOL_DEFINITION('international standard',
'automotive_design',2009,#670);
#670=APPLICATION_CONTEXT(
'Core Data for Automotive Mechanical Design Process');
#671=PRODUCT_CONTEXT('part definition',#670,'mechanical');
#672=PRODUCT('C7_Jaw_Servo_mount_spacer','C7_Jaw_Servo_mount_spacer',$,
(#671));
#673=PRESENTATION_STYLE_ASSIGNMENT((#674));
#674=SURFACE_STYLE_USAGE(.BOTH.,#675);
#675=SURFACE_SIDE_STYLE('',(#676));
#676=SURFACE_STYLE_FILL_AREA(#677);
#677=FILL_AREA_STYLE('Steel - Satin',(#678));
#678=FILL_AREA_STYLE_COLOUR('Steel - Satin',#679);
#679=COLOUR_RGB('Steel - Satin',0.627450980392157,0.627450980392157,0.627450980392157);
ENDSEC;
END-ISO-10303-21;
